ISO-10303-21;
HEADER;
FILE_DESCRIPTION (( 'STEP AP214' ),
    '1' );
FILE_NAME ('BS1ISOK160159 FULLVAC.STEP',
    '2024-05-22T12:45:40',
    ( '' ),
    ( '' ),
    'SwSTEP 2.0',
    'SolidWorks 2017',
    '' );
FILE_SCHEMA (( 'AUTOMOTIVE_DESIGN' ));
ENDSEC;

DATA;
#1 = AXIS2_PLACEMENT_3D ( 'NONE', #269, #124, #150 ) ;
#2 = FACE_OUTER_BOUND ( 'NONE', #164, .T. ) ;
#3 = DIRECTION ( 'NONE',  ( 0.0000000000000000000, 0.0000000000000000000, 1.000000000000000000 ) ) ;
#4 = VERTEX_POINT ( 'NONE', #217 ) ;
#5 = FACE_OUTER_BOUND ( 'NONE', #160, .T. ) ;
#6 = UNCERTAINTY_MEASURE_WITH_UNIT (LENGTH_MEASURE( 1.000000000000000100E-005 ), #115, 'distance_accuracy_value', 'NONE');
#7 = FACE_BOUND ( 'NONE', #85, .T. ) ;
#8 = EDGE_LOOP ( 'NONE', ( #281 ) ) ;
#9 = FACE_OUTER_BOUND ( 'NONE', #197, .T. ) ;
#10 = CLOSED_SHELL ( 'NONE', ( #228, #147, #270, #174, #198, #297, #248, #77, #26, #123, #295, #76, #99 ) ) ;
#11 = AXIS2_PLACEMENT_3D ( 'NONE', #224, #296, #176 ) ;
#12 = VERTEX_POINT ( 'NONE', #194 ) ;
#13 = CARTESIAN_POINT ( 'NONE',  ( 0.0000000000000000000, -5.149999999999979900, 0.0000000000000000000 ) ) ;
#14 = SURFACE_STYLE_USAGE ( .BOTH. , #90 ) ;
#15 = DIRECTION ( 'NONE',  ( 0.0000000000000000000, 0.0000000000000000000, 1.000000000000000000 ) ) ;
#16 = PLANE ( 'NONE',  #177 ) ;
#17 = FACE_OUTER_BOUND ( 'NONE', #172, .T. ) ;
#18 = EDGE_CURVE ( 'NONE', #22, #22, #129, .T. ) ;
#19 = CARTESIAN_POINT ( 'NONE',  ( 0.0000000000000000000, -6.688194301613415300, 90.00000000000000000 ) ) ;
#20 = DIRECTION ( 'NONE',  ( 0.0000000000000000000, -1.000000000000000000, -0.0000000000000000000 ) ) ;
#21 = CARTESIAN_POINT ( 'NONE',  ( 0.0000000000000000000, -3.510416792694058600, 0.0000000000000000000 ) ) ;
#22 = VERTEX_POINT ( 'NONE', #19 ) ;
#23 = ORIENTED_EDGE ( 'NONE', *, *, #18, .F. ) ;
#24 =( GEOMETRIC_REPRESENTATION_CONTEXT ( 3 ) GLOBAL_UNCERTAINTY_ASSIGNED_CONTEXT ( ( #201 ) ) GLOBAL_UNIT_ASSIGNED_CONTEXT ( ( #65, #307, #167 ) ) REPRESENTATION_CONTEXT ( 'NONE', 'WORKASPACE' ) );
#25 = DIRECTION ( 'NONE',  ( 0.0000000000000000000, 0.0000000000000000000, -1.000000000000000000 ) ) ;
#26 = ADVANCED_FACE ( 'NONE', ( #233, #5 ), #40, .T. ) ;
#27 = CARTESIAN_POINT ( 'NONE',  ( 0.0000000000000000000, -5.000000000000001800, 0.0000000000000000000 ) ) ;
#28 = FACE_OUTER_BOUND ( 'NONE', #302, .T. ) ;
#29 = STYLED_ITEM ( 'NONE', ( #69 ), #61 ) ;
#30 = VERTEX_POINT ( 'NONE', #187 ) ;
#31 = FACE_BOUND ( 'NONE', #86, .T. ) ;
#32 = VERTEX_POINT ( 'NONE', #166 ) ;
#33 = DIRECTION ( 'NONE',  ( 0.0000000000000000000, 1.000000000000000000, 0.0000000000000000000 ) ) ;
#34 = CIRCLE ( 'NONE', #116, 90.00000000000000000 ) ;
#35 = AXIS2_PLACEMENT_3D ( 'NONE', #41, #243, #190 ) ;
#36 = ORIENTED_EDGE ( 'NONE', *, *, #265, .T. ) ;
#37 = PLANE ( 'NONE',  #216 ) ;
#38 = DIRECTION ( 'NONE',  ( 0.0000000000000000000, -1.000000000000000000, -0.0000000000000000000 ) ) ;
#39 = AXIS2_PLACEMENT_3D ( 'NONE', #289, #95, #140 ) ;
#40 = CYLINDRICAL_SURFACE ( 'NONE', #247, 90.00000000000000000 ) ;
#41 = CARTESIAN_POINT ( 'NONE',  ( 0.0000000000000000000, 0.0000000000000000000, 0.0000000000000000000 ) ) ;
#42 = DIRECTION ( 'NONE',  ( 0.0000000000000000000, 0.0000000000000000000, 1.000000000000000000 ) ) ;
#43 = APPLICATION_CONTEXT ( 'automotive_design' ) ;
#44 = DIRECTION ( 'NONE',  ( 0.0000000000000000000, 0.0000000000000000000, -1.000000000000000000 ) ) ;
#45 = CYLINDRICAL_SURFACE ( 'NONE', #173, 90.00000000000000000 ) ;
#46 = ORIENTED_EDGE ( 'NONE', *, *, #137, .F. ) ;
#47 = DIRECTION ( 'NONE',  ( 0.0000000000000000000, 1.000000000000000000, 0.0000000000000000000 ) ) ;
#48 = AXIS2_PLACEMENT_3D ( 'NONE', #211, #171, #139 ) ;
#49 = COLOUR_RGB ( '',0.7921568627450980000, 0.8196078431372548800, 0.9333333333333333500 ) ;
#50 = DIRECTION ( 'NONE',  ( 0.0000000000000000000, 1.000000000000000000, 0.0000000000000000000 ) ) ;
#51 = CARTESIAN_POINT ( 'NONE',  ( 0.0000000000000000000, 0.0000000000000000000, 0.0000000000000000000 ) ) ;
#52 = FACE_OUTER_BOUND ( 'NONE', #8, .T. ) ;
#53 = ORIENTED_EDGE ( 'NONE', *, *, #103, .T. ) ;
#54 = PRODUCT ( 'BS1ISOK160159 FULLVAC', 'BS1ISOK160159 FULLVAC', '', ( #241 ) ) ;
#55 = AXIS2_PLACEMENT_3D ( 'NONE', #205, #91, #261 ) ;
#56 = FACE_OUTER_BOUND ( 'NONE', #231, .T. ) ;
#57 = ADVANCED_BREP_SHAPE_REPRESENTATION ( 'BS1ISOK160159 FULLVAC', ( #61, #35 ), #89 ) ;
#58 = DIRECTION ( 'NONE',  ( 0.0000000000000000000, 0.0000000000000000000, -1.000000000000000000 ) ) ;
#59 = FACE_OUTER_BOUND ( 'NONE', #108, .T. ) ;
#60 = EDGE_CURVE ( 'NONE', #284, #284, #185, .T. ) ;
#61 = MANIFOLD_SOLID_BREP ( 'Chanfrein1', #10 ) ;
#62 = AXIS2_PLACEMENT_3D ( 'NONE', #27, #50, #226 ) ;
#63 = TOROIDAL_SURFACE ( 'NONE', #109, 89.79999999999999700, 0.2000000000000096400 ) ;
#64 = CARTESIAN_POINT ( 'NONE',  ( 0.0000000000000000000, -6.599999999999994300, -79.77500000000000600 ) ) ;
#65 =( LENGTH_UNIT ( ) NAMED_UNIT ( * ) SI_UNIT ( .MILLI., .METRE. ) );
#66 = APPLICATION_PROTOCOL_DEFINITION ( 'draft international standard', 'automotive_design', 1998, #71 ) ;
#67 = DIRECTION ( 'NONE',  ( 0.0000000000000000000, 1.000000000000000000, 0.0000000000000000000 ) ) ;
#68 = FACE_OUTER_BOUND ( 'NONE', #293, .T. ) ;
#69 = PRESENTATION_STYLE_ASSIGNMENT (( #276 ) ) ;
#70 =( NAMED_UNIT ( * ) PLANE_ANGLE_UNIT ( ) SI_UNIT ( $, .RADIAN. ) );
#71 = APPLICATION_CONTEXT ( 'automotive_design' ) ;
#72 = DIRECTION ( 'NONE',  ( 0.0000000000000000000, 1.000000000000000000, 0.0000000000000000000 ) ) ;
#73 = CIRCLE ( 'NONE', #204, 89.82352941176469600 ) ;
#74 = ORIENTED_EDGE ( 'NONE', *, *, #60, .T. ) ;
#75 = EDGE_LOOP ( 'NONE', ( #267 ) ) ;
#76 = ADVANCED_FACE ( 'NONE', ( #31, #2 ), #37, .T. ) ;
#77 = ADVANCED_FACE ( 'NONE', ( #280, #56 ), #175, .T. ) ;
#78 = CARTESIAN_POINT ( 'NONE',  ( 0.0000000000000000000, -1.734723475976807100E-015, 0.0000000000000000000 ) ) ;
#79 = CONICAL_SURFACE ( 'NONE', #298, 77.07500000000000300, 0.7853981633974530500 ) ;
#80 = MECHANICAL_DESIGN_GEOMETRIC_PRESENTATION_REPRESENTATION (  '', ( #29 ), #24 ) ;
#81 = FACE_OUTER_BOUND ( 'NONE', #101, .T. ) ;
#82 = ORIENTED_EDGE ( 'NONE', *, *, #161, .T. ) ;
#83 = ORIENTED_EDGE ( 'NONE', *, *, #60, .F. ) ;
#84 = SURFACE_SIDE_STYLE ('',( #193 ) ) ;
#85 = EDGE_LOOP ( 'NONE', ( #203 ) ) ;
#86 = EDGE_LOOP ( 'NONE', ( #113 ) ) ;
#87 = DIRECTION ( 'NONE',  ( 0.0000000000000000000, -1.000000000000000000, 0.0000000000000000000 ) ) ;
#88 = DIRECTION ( 'NONE',  ( 0.0000000000000000000, 0.0000000000000000000, 1.000000000000000000 ) ) ;
#89 =( GEOMETRIC_REPRESENTATION_CONTEXT ( 3 ) GLOBAL_UNCERTAINTY_ASSIGNED_CONTEXT ( ( #154 ) ) GLOBAL_UNIT_ASSIGNED_CONTEXT ( ( #294, #290, #168 ) ) REPRESENTATION_CONTEXT ( 'NONE', 'WORKASPACE' ) );
#90 = SURFACE_SIDE_STYLE ('',( #292 ) ) ;
#91 = DIRECTION ( 'NONE',  ( 0.0000000000000000000, 1.000000000000000000, 0.0000000000000000000 ) ) ;
#92 = SHAPE_DEFINITION_REPRESENTATION ( #181, #57 ) ;
#93 = APPLICATION_PROTOCOL_DEFINITION ( 'draft international standard', 'automotive_design', 1998, #43 ) ;
#94 = DIRECTION ( 'NONE',  ( 0.0000000000000000000, 0.0000000000000000000, 1.000000000000000000 ) ) ;
#95 = DIRECTION ( 'NONE',  ( 0.0000000000000000000, 1.000000000000000000, 0.0000000000000000000 ) ) ;
#96 = CIRCLE ( 'NONE', #227, 77.07500000000000300 ) ;
#97 = CARTESIAN_POINT ( 'NONE',  ( 0.0000000000000000000, -3.510416792694058600, 89.82352941176469600 ) ) ;
#98 = CARTESIAN_POINT ( 'NONE',  ( 90.00000000000000000, -12.00000000000000200, 0.0000000000000000000 ) ) ;
#99 = ADVANCED_FACE ( 'NONE', ( #222, #213 ), #79, .F. ) ;
#100 = DIRECTION ( 'NONE',  ( 0.0000000000000000000, 1.000000000000000000, 0.0000000000000000000 ) ) ;
#101 = EDGE_LOOP ( 'NONE', ( #274 ) ) ;
#102 = DIRECTION ( 'NONE',  ( 0.0000000000000000000, 1.000000000000000000, 0.0000000000000000000 ) ) ;
#103 = EDGE_CURVE ( 'NONE', #299, #299, #311, .T. ) ;
#104 = CIRCLE ( 'NONE', #55, 90.00000000000001400 ) ;
#105 = EDGE_LOOP ( 'NONE', ( #53 ) ) ;
#106 = PRODUCT_RELATED_PRODUCT_CATEGORY ( 'part', '', ( #54 ) ) ;
#107 = EDGE_CURVE ( 'NONE', #32, #32, #104, .T. ) ;
#108 = EDGE_LOOP ( 'NONE', ( #36 ) ) ;
#109 = AXIS2_PLACEMENT_3D ( 'NONE', #264, #47, #42 ) ;
#110 = CARTESIAN_POINT ( 'NONE',  ( 0.0000000000000000000, -5.149999999999979900, 0.0000000000000000000 ) ) ;
#111 = CYLINDRICAL_SURFACE ( 'NONE', #180, 87.50000000000000000 ) ;
#112 = CARTESIAN_POINT ( 'NONE',  ( 0.0000000000000000000, -3.311805698386588200, 0.0000000000000000000 ) ) ;
#113 = ORIENTED_EDGE ( 'NONE', *, *, #240, .T. ) ;
#114 = CARTESIAN_POINT ( 'NONE',  ( 0.0000000000000000000, -6.489583207305954300, 0.0000000000000000000 ) ) ;
#115 =( LENGTH_UNIT ( ) NAMED_UNIT ( * ) SI_UNIT ( .MILLI., .METRE. ) );
#116 = AXIS2_PLACEMENT_3D ( 'NONE', #78, #268, #3 ) ;
#117 = DIRECTION ( 'NONE',  ( 0.0000000000000000000, -1.000000000000000000, -0.0000000000000000000 ) ) ;
#118 = CIRCLE ( 'NONE', #189, 90.00000000000000000 ) ;
#119 = ORIENTED_EDGE ( 'NONE', *, *, #240, .F. ) ;
#120 = CARTESIAN_POINT ( 'NONE',  ( 0.0000000000000000000, -6.489583207305954300, 89.82352941176469600 ) ) ;
#121 = STYLED_ITEM ( 'NONE', ( #178 ), #57 ) ;
#122 = ORIENTED_EDGE ( 'NONE', *, *, #195, .T. ) ;
#123 = ADVANCED_FACE ( 'NONE', ( #266, #257 ), #138, .T. ) ;
#124 = DIRECTION ( 'NONE',  ( 0.0000000000000000000, 1.000000000000000000, 0.0000000000000000000 ) ) ;
#125 = CARTESIAN_POINT ( 'NONE',  ( 0.0000000000000000000, -11.99999999999999800, 0.0000000000000000000 ) ) ;
#126 = DIRECTION ( 'NONE',  ( 0.0000000000000000000, 0.0000000000000000000, 1.000000000000000000 ) ) ;
#127 = VERTEX_POINT ( 'NONE', #285 ) ;
#128 = CYLINDRICAL_SURFACE ( 'NONE', #152, 77.07500000000000300 ) ;
#129 = CIRCLE ( 'NONE', #253, 90.00000000000000000 ) ;
#130 = CARTESIAN_POINT ( 'NONE',  ( 76.28130781247499200, -6.600000000000000500, 0.0000000000000000000 ) ) ;
#131 = CARTESIAN_POINT ( 'NONE',  ( 77.07500000000000300, -7.860465750519907100E-016, 0.0000000000000000000 ) ) ;
#132 = VERTEX_POINT ( 'NONE', #313 ) ;
#133 = AXIS2_PLACEMENT_3D ( 'NONE', #131, #210, #303 ) ;
#134 = FACE_OUTER_BOUND ( 'NONE', #300, .T. ) ;
#135 = ORIENTED_EDGE ( 'NONE', *, *, #195, .F. ) ;
#136 = EDGE_LOOP ( 'NONE', ( #208 ) ) ;
#137 = EDGE_CURVE ( 'NONE', #153, #153, #252, .T. ) ;
#138 = PLANE ( 'NONE',  #133 ) ;
#139 = DIRECTION ( 'NONE',  ( 0.0000000000000000000, 0.0000000000000000000, 1.000000000000000000 ) ) ;
#140 = DIRECTION ( 'NONE',  ( 0.0000000000000000000, 0.0000000000000000000, 1.000000000000000000 ) ) ;
#141 = PRODUCT_DEFINITION_CONTEXT ( 'detailed design', #43, 'design' ) ;
#142 = DIRECTION ( 'NONE',  ( 0.0000000000000000000, 1.000000000000000000, 0.0000000000000000000 ) ) ;
#143 = CARTESIAN_POINT ( 'NONE',  ( 0.0000000000000000000, -12.00000000000000200, 0.0000000000000000000 ) ) ;
#144 = FILL_AREA_STYLE_COLOUR ( '', #304 ) ;
#145 = EDGE_LOOP ( 'NONE', ( #165 ) ) ;
#146 = ORIENTED_EDGE ( 'NONE', *, *, #137, .T. ) ;
#147 = ADVANCED_FACE ( 'NONE', ( #52, #279 ), #16, .T. ) ;
#148 =( GEOMETRIC_REPRESENTATION_CONTEXT ( 3 ) GLOBAL_UNCERTAINTY_ASSIGNED_CONTEXT ( ( #6 ) ) GLOBAL_UNIT_ASSIGNED_CONTEXT ( ( #115, #70, #245 ) ) REPRESENTATION_CONTEXT ( 'NONE', 'WORKASPACE' ) );
#149 = CARTESIAN_POINT ( 'NONE',  ( 0.0000000000000000000, 219.0377738766273100, 0.0000000000000000000 ) ) ;
#150 = DIRECTION ( 'NONE',  ( 0.0000000000000000000, 0.0000000000000000000, -1.000000000000000000 ) ) ;
#151 = VERTEX_POINT ( 'NONE', #312 ) ;
#152 = AXIS2_PLACEMENT_3D ( 'NONE', #310, #142, #169 ) ;
#153 = VERTEX_POINT ( 'NONE', #219 ) ;
#154 = UNCERTAINTY_MEASURE_WITH_UNIT (LENGTH_MEASURE( 1.000000000000000100E-005 ), #294, 'distance_accuracy_value', 'NONE');
#155 = EDGE_CURVE ( 'NONE', #127, #127, #118, .T. ) ;
#156 = CYLINDRICAL_SURFACE ( 'NONE', #162, 79.77500000000000600 ) ;
#157 = CARTESIAN_POINT ( 'NONE',  ( 0.0000000000000000000, -11.99999999999999800, 0.0000000000000000000 ) ) ;
#158 = PRODUCT_DEFINITION ( 'UNKNOWN', '', #199, #141 ) ;
#159 = DIRECTION ( 'NONE',  ( 0.0000000000000000000, 1.000000000000000000, 0.0000000000000000000 ) ) ;
#160 = EDGE_LOOP ( 'NONE', ( #135 ) ) ;
#161 = EDGE_CURVE ( 'NONE', #170, #170, #73, .T. ) ;
#162 = AXIS2_PLACEMENT_3D ( 'NONE', #149, #251, #25 ) ;
#163 = CARTESIAN_POINT ( 'NONE',  ( 0.0000000000000000000, -6.688194301613415300, 0.0000000000000000000 ) ) ;
#164 = EDGE_LOOP ( 'NONE', ( #83 ) ) ;
#165 = ORIENTED_EDGE ( 'NONE', *, *, #179, .F. ) ;
#166 = CARTESIAN_POINT ( 'NONE',  ( 0.0000000000000000000, -3.311805698386587300, 90.00000000000001400 ) ) ;
#167 =( NAMED_UNIT ( * ) SI_UNIT ( $, .STERADIAN. ) SOLID_ANGLE_UNIT ( ) );
#168 =( NAMED_UNIT ( * ) SI_UNIT ( $, .STERADIAN. ) SOLID_ANGLE_UNIT ( ) );
#169 = DIRECTION ( 'NONE',  ( 0.0000000000000000000, 0.0000000000000000000, 1.000000000000000000 ) ) ;
#170 = VERTEX_POINT ( 'NONE', #97 ) ;
#171 = DIRECTION ( 'NONE',  ( 0.0000000000000000000, 1.000000000000000000, 0.0000000000000000000 ) ) ;
#172 = EDGE_LOOP ( 'NONE', ( #306 ) ) ;
#173 = AXIS2_PLACEMENT_3D ( 'NONE', #125, #229, #126 ) ;
#174 = ADVANCED_FACE ( 'NONE', ( #7, #28 ), #220, .T. ) ;
#175 = TOROIDAL_SURFACE ( 'NONE', #275, 89.79999999999999700, 0.2000000000000096400 ) ;
#176 = DIRECTION ( 'NONE',  ( 0.0000000000000000000, 0.0000000000000000000, -1.000000000000000000 ) ) ;
#177 = AXIS2_PLACEMENT_3D ( 'NONE', #182, #117, #291 ) ;
#178 = PRESENTATION_STYLE_ASSIGNMENT (( #14 ) ) ;
#179 = EDGE_CURVE ( 'NONE', #4, #4, #96, .T. ) ;
#180 = AXIS2_PLACEMENT_3D ( 'NONE', #250, #100, #15 ) ;
#181 = PRODUCT_DEFINITION_SHAPE ( 'NONE', 'NONE',  #158 ) ;
#182 = CARTESIAN_POINT ( 'NONE',  ( 87.50000000000000000, -9.983193277310919100, 0.0000000000000000000 ) ) ;
#183 = AXIS2_PLACEMENT_3D ( 'NONE', #114, #188, #212 ) ;
#184 = ORIENTED_EDGE ( 'NONE', *, *, #179, .T. ) ;
#185 = CIRCLE ( 'NONE', #278, 79.77500000000000600 ) ;
#186 = EDGE_LOOP ( 'NONE', ( #119 ) ) ;
#187 = CARTESIAN_POINT ( 'NONE',  ( 0.0000000000000000000, -6.600000000000000500, -78.52500000000003400 ) ) ;
#188 = DIRECTION ( 'NONE',  ( 0.0000000000000000000, 1.000000000000000000, 0.0000000000000000000 ) ) ;
#189 = AXIS2_PLACEMENT_3D ( 'NONE', #143, #218, #244 ) ;
#190 = DIRECTION ( 'NONE',  ( 1.000000000000000000, 0.0000000000000000000, 0.0000000000000000000 ) ) ;
#191 = CARTESIAN_POINT ( 'NONE',  ( 0.0000000000000000000, -9.983193277310920900, 87.50000000000000000 ) ) ;
#192 = FACE_OUTER_BOUND ( 'NONE', #136, .T. ) ;
#193 = SURFACE_STYLE_FILL_AREA ( #309 ) ;
#194 = CARTESIAN_POINT ( 'NONE',  ( 0.0000000000000000000, -12.00000000000000200, 87.50000000000000000 ) ) ;
#195 = EDGE_CURVE ( 'NONE', #151, #151, #34, .T. ) ;
#196 = FACE_OUTER_BOUND ( 'NONE', #308, .T. ) ;
#197 = EDGE_LOOP ( 'NONE', ( #74 ) ) ;
#198 = ADVANCED_FACE ( 'NONE', ( #17, #68 ), #45, .T. ) ;
#199 = PRODUCT_DEFINITION_FORMATION_WITH_SPECIFIED_SOURCE ( 'ANY', '', #54, .NOT_KNOWN. ) ;
#200 = CIRCLE ( 'NONE', #48, 87.50000000000000000 ) ;
#201 = UNCERTAINTY_MEASURE_WITH_UNIT (LENGTH_MEASURE( 1.000000000000000100E-005 ), #65, 'distance_accuracy_value', 'NONE');
#202 = FACE_OUTER_BOUND ( 'NONE', #105, .T. ) ;
#203 = ORIENTED_EDGE ( 'NONE', *, *, #271, .T. ) ;
#204 = AXIS2_PLACEMENT_3D ( 'NONE', #21, #72, #246 ) ;
#205 = CARTESIAN_POINT ( 'NONE',  ( 0.0000000000000000000, -3.311805698386587300, 0.0000000000000000000 ) ) ;
#206 = MECHANICAL_DESIGN_GEOMETRIC_PRESENTATION_REPRESENTATION (  '', ( #121 ), #148 ) ;
#207 = EDGE_CURVE ( 'NONE', #132, #132, #242, .T. ) ;
#208 = ORIENTED_EDGE ( 'NONE', *, *, #161, .F. ) ;
#209 = ORIENTED_EDGE ( 'NONE', *, *, #207, .F. ) ;
#210 = DIRECTION ( 'NONE',  ( 0.0000000000000000000, 1.000000000000000000, 0.0000000000000000000 ) ) ;
#211 = CARTESIAN_POINT ( 'NONE',  ( 0.0000000000000000000, -12.00000000000000200, 0.0000000000000000000 ) ) ;
#212 = DIRECTION ( 'NONE',  ( 0.0000000000000000000, 0.0000000000000000000, 1.000000000000000000 ) ) ;
#213 = FACE_BOUND ( 'NONE', #260, .T. ) ;
#214 = DIRECTION ( 'NONE',  ( 0.0000000000000000000, 1.000000000000000000, 0.0000000000000000000 ) ) ;
#215 = DIRECTION ( 'NONE',  ( 0.0000000000000000000, 0.0000000000000000000, -1.000000000000000000 ) ) ;
#216 = AXIS2_PLACEMENT_3D ( 'NONE', #130, #38, #58 ) ;
#217 = CARTESIAN_POINT ( 'NONE',  ( 0.0000000000000000000, 0.0000000000000000000, 77.07500000000000300 ) ) ;
#218 = DIRECTION ( 'NONE',  ( 0.0000000000000000000, 1.000000000000000000, 0.0000000000000000000 ) ) ;
#219 = CARTESIAN_POINT ( 'NONE',  ( 0.0000000000000000000, -5.149999999999979900, -77.07500000000000300 ) ) ;
#220 = PLANE ( 'NONE',  #288 ) ;
#221 = CIRCLE ( 'NONE', #39, 87.50000000000000000 ) ;
#222 = FACE_OUTER_BOUND ( 'NONE', #186, .T. ) ;
#223 = EDGE_LOOP ( 'NONE', ( #249 ) ) ;
#224 = CARTESIAN_POINT ( 'NONE',  ( 0.0000000000000000000, -9.983193277310926200, 0.0000000000000000000 ) ) ;
#225 = FACE_OUTER_BOUND ( 'NONE', #255, .T. ) ;
#226 = DIRECTION ( 'NONE',  ( 0.0000000000000000000, 0.0000000000000000000, 1.000000000000000000 ) ) ;
#227 = AXIS2_PLACEMENT_3D ( 'NONE', #51, #102, #273 ) ;
#228 = ADVANCED_FACE ( 'NONE', ( #9, #134 ), #156, .F. ) ;
#229 = DIRECTION ( 'NONE',  ( 0.0000000000000000000, 1.000000000000000000, 0.0000000000000000000 ) ) ;
#230 = EDGE_LOOP ( 'NONE', ( #238 ) ) ;
#231 = EDGE_LOOP ( 'NONE', ( #301 ) ) ;
#232 = EDGE_LOOP ( 'NONE', ( #122 ) ) ;
#233 = FACE_OUTER_BOUND ( 'NONE', #230, .T. ) ;
#234 = VERTEX_POINT ( 'NONE', #191 ) ;
#235 = ORIENTED_EDGE ( 'NONE', *, *, #207, .T. ) ;
#236 = DIRECTION ( 'NONE',  ( 0.0000000000000000000, 0.0000000000000000000, 1.000000000000000000 ) ) ;
#237 = AXIS2_PLACEMENT_3D ( 'NONE', #13, #87, #215 ) ;
#238 = ORIENTED_EDGE ( 'NONE', *, *, #107, .T. ) ;
#239 = ORIENTED_EDGE ( 'NONE', *, *, #155, .F. ) ;
#240 = EDGE_CURVE ( 'NONE', #30, #30, #262, .T. ) ;
#241 = PRODUCT_CONTEXT ( 'NONE', #71, 'mechanical' ) ;
#242 = CIRCLE ( 'NONE', #11, 79.77500000000000600 ) ;
#243 = DIRECTION ( 'NONE',  ( 0.0000000000000000000, 0.0000000000000000000, 1.000000000000000000 ) ) ;
#244 = DIRECTION ( 'NONE',  ( 0.0000000000000000000, 0.0000000000000000000, 1.000000000000000000 ) ) ;
#245 =( NAMED_UNIT ( * ) SI_UNIT ( $, .STERADIAN. ) SOLID_ANGLE_UNIT ( ) );
#246 = DIRECTION ( 'NONE',  ( 0.0000000000000000000, 0.0000000000000000000, 1.000000000000000000 ) ) ;
#247 = AXIS2_PLACEMENT_3D ( 'NONE', #157, #214, #236 ) ;
#248 = ADVANCED_FACE ( 'NONE', ( #202, #192 ), #305, .F. ) ;
#249 = ORIENTED_EDGE ( 'NONE', *, *, #18, .T. ) ;
#250 = CARTESIAN_POINT ( 'NONE',  ( 0.0000000000000000000, -11.99999999999999800, 0.0000000000000000000 ) ) ;
#251 = DIRECTION ( 'NONE',  ( -0.0000000000000000000, -1.000000000000000000, -0.0000000000000000000 ) ) ;
#252 = CIRCLE ( 'NONE', #237, 77.07500000000000300 ) ;
#253 = AXIS2_PLACEMENT_3D ( 'NONE', #163, #67, #94 ) ;
#254 = PRESENTATION_LAYER_ASSIGNMENT (  '', '', ( #121 ) ) ;
#255 = EDGE_LOOP ( 'NONE', ( #184 ) ) ;
#256 = FILL_AREA_STYLE_COLOUR ( '', #49 ) ;
#257 = FACE_BOUND ( 'NONE', #145, .T. ) ;
#258 = PRESENTATION_LAYER_ASSIGNMENT (  '', '', ( #29 ) ) ;
#259 = FACE_OUTER_BOUND ( 'NONE', #223, .T. ) ;
#260 = EDGE_LOOP ( 'NONE', ( #46 ) ) ;
#261 = DIRECTION ( 'NONE',  ( 0.0000000000000000000, 0.0000000000000000000, 1.000000000000000000 ) ) ;
#262 = CIRCLE ( 'NONE', #1, 78.52500000000003400 ) ;
#263 = EDGE_LOOP ( 'NONE', ( #235 ) ) ;
#264 = CARTESIAN_POINT ( 'NONE',  ( 0.0000000000000000000, -6.688194301613415300, 0.0000000000000000000 ) ) ;
#265 = EDGE_CURVE ( 'NONE', #234, #234, #221, .T. ) ;
#266 = FACE_OUTER_BOUND ( 'NONE', #232, .T. ) ;
#267 = ORIENTED_EDGE ( 'NONE', *, *, #271, .F. ) ;
#268 = DIRECTION ( 'NONE',  ( 0.0000000000000000000, 1.000000000000000000, 0.0000000000000000000 ) ) ;
#269 = CARTESIAN_POINT ( 'NONE',  ( 0.0000000000000000000, -6.600000000000000500, 0.0000000000000000000 ) ) ;
#270 = ADVANCED_FACE ( 'NONE', ( #59, #272 ), #111, .F. ) ;
#271 = EDGE_CURVE ( 'NONE', #12, #12, #200, .T. ) ;
#272 = FACE_OUTER_BOUND ( 'NONE', #75, .T. ) ;
#273 = DIRECTION ( 'NONE',  ( 0.0000000000000000000, 0.0000000000000000000, 1.000000000000000000 ) ) ;
#274 = ORIENTED_EDGE ( 'NONE', *, *, #103, .F. ) ;
#275 = AXIS2_PLACEMENT_3D ( 'NONE', #112, #33, #88 ) ;
#276 = SURFACE_STYLE_USAGE ( .BOTH. , #84 ) ;
#277 = DIRECTION ( 'NONE',  ( 0.0000000000000000000, 0.0000000000000000000, -1.000000000000000000 ) ) ;
#278 = AXIS2_PLACEMENT_3D ( 'NONE', #287, #159, #282 ) ;
#279 = FACE_BOUND ( 'NONE', #263, .T. ) ;
#280 = FACE_OUTER_BOUND ( 'NONE', #286, .T. ) ;
#281 = ORIENTED_EDGE ( 'NONE', *, *, #265, .F. ) ;
#282 = DIRECTION ( 'NONE',  ( 0.0000000000000000000, 0.0000000000000000000, -1.000000000000000000 ) ) ;
#283 = DIRECTION ( 'NONE',  ( 0.0000000000000000000, -1.000000000000000000, 0.0000000000000000000 ) ) ;
#284 = VERTEX_POINT ( 'NONE', #64 ) ;
#285 = CARTESIAN_POINT ( 'NONE',  ( 0.0000000000000000000, -12.00000000000000200, 90.00000000000000000 ) ) ;
#286 = EDGE_LOOP ( 'NONE', ( #82 ) ) ;
#287 = CARTESIAN_POINT ( 'NONE',  ( 0.0000000000000000000, -6.599999999999994300, 0.0000000000000000000 ) ) ;
#288 = AXIS2_PLACEMENT_3D ( 'NONE', #98, #20, #44 ) ;
#289 = CARTESIAN_POINT ( 'NONE',  ( 0.0000000000000000000, -9.983193277310920900, 0.0000000000000000000 ) ) ;
#290 =( NAMED_UNIT ( * ) PLANE_ANGLE_UNIT ( ) SI_UNIT ( $, .RADIAN. ) );
#291 = DIRECTION ( 'NONE',  ( 0.0000000000000000000, 0.0000000000000000000, -1.000000000000000000 ) ) ;
#292 = SURFACE_STYLE_FILL_AREA ( #314 ) ;
#293 = EDGE_LOOP ( 'NONE', ( #23 ) ) ;
#294 =( LENGTH_UNIT ( ) NAMED_UNIT ( * ) SI_UNIT ( .MILLI., .METRE. ) );
#295 = ADVANCED_FACE ( 'NONE', ( #196, #225 ), #128, .F. ) ;
#296 = DIRECTION ( 'NONE',  ( -0.0000000000000000000, 1.000000000000000000, -0.0000000000000000000 ) ) ;
#297 = ADVANCED_FACE ( 'NONE', ( #259, #81 ), #63, .T. ) ;
#298 = AXIS2_PLACEMENT_3D ( 'NONE', #110, #283, #277 ) ;
#299 = VERTEX_POINT ( 'NONE', #120 ) ;
#300 = EDGE_LOOP ( 'NONE', ( #209 ) ) ;
#301 = ORIENTED_EDGE ( 'NONE', *, *, #107, .F. ) ;
#302 = EDGE_LOOP ( 'NONE', ( #239 ) ) ;
#303 = DIRECTION ( 'NONE',  ( 0.0000000000000000000, -0.0000000000000000000, 1.000000000000000000 ) ) ;
#304 = COLOUR_RGB ( '',0.7921568627450980000, 0.8196078431372548800, 0.9333333333333333500 ) ;
#305 = TOROIDAL_SURFACE ( 'NONE', #62, 90.00000000000000000, 1.500000000000001300 ) ;
#306 = ORIENTED_EDGE ( 'NONE', *, *, #155, .T. ) ;
#307 =( NAMED_UNIT ( * ) PLANE_ANGLE_UNIT ( ) SI_UNIT ( $, .RADIAN. ) );
#308 = EDGE_LOOP ( 'NONE', ( #146 ) ) ;
#309 = FILL_AREA_STYLE ('',( #256 ) ) ;
#310 = CARTESIAN_POINT ( 'NONE',  ( 0.0000000000000000000, -11.99999999999999800, 0.0000000000000000000 ) ) ;
#311 = CIRCLE ( 'NONE', #183, 89.82352941176469600 ) ;
#312 = CARTESIAN_POINT ( 'NONE',  ( 0.0000000000000000000, -1.734723475976807100E-015, 90.00000000000000000 ) ) ;
#313 = CARTESIAN_POINT ( 'NONE',  ( 0.0000000000000000000, -9.983193277310926200, -79.77500000000000600 ) ) ;
#314 = FILL_AREA_STYLE ('',( #144 ) ) ;
ENDSEC;
END-ISO-10303-21;
